[ENG-ESP] Origami: Cute Octopus, Made with Recycling.--- Origami: Pulpo tierno, hecho con reciclaje.

in GEMS2 months ago

Origami: Cute Octopus, Made with Recycling.

Origami: Pulpo tierno, hecho con reciclaje.


Greetings my dear friends who love reading and crafts, today I come to show you a very simple origami to do with the children of the house. A beautiful origami octopus, very tender that is made with recycled materials.

Saludos mis queridos amigos amantes de la lectura y de las manualidades, el día de hoy les vengo a mostrar un origami muy sencillo de hacer para realizar con los pequeños de la casa. Un precioso pulpo de origami, muy tierno que es realizado con materiales reciclados.

portada.jpg


As you can see, this beautiful pulpit is very simple to make, but incredibly versatile as it can be used as a card decoration, pencil holder or simply as a decoration for our desk.

Como pueden apreciar este hermoso pulpito es muy sencillo de hacer, pero increíblemente versátil ya que se puede usar como decoración de tarjetas, portalápices o simplemente como adorno de nuestro escritorio.


To make this very tender origami, I decided to use recycled materials, and thus avoid generating unnecessary waste. In this case I used a piece 15 cm x 15 cm that I cut out of a damaged magazine. I also included some pieces of foami, leather and 2 sequins, plus a little bit of liquid silicone.

Para realizar este origami tan tierno, decidí utilizar materiales reciclados, y así evitar generar desperdicios innecesarios. En este caso use un trozo 15 cm x 15 cm que recorte de una revista dañada. Además incluí unos retazos de foami, cuerina y 2 lentejuelas, además de un poquito de silicón líquido.


I will leave you the images with the step by step. It's really easy to do and just needs a little patience.

Te dejare las imágenes con el paso a paso. Es realmente sencillo de hacer y solo se necesita un poco de paciencia.


Steps ---- Pasos
--------------1-----------------------------------------------------------------------2 ------------------
Imagen1.jpg


Steps ---- Pasos
--------------3-----------------------------------------------------------------------4 ------------------
Imagen2.jpg


Steps ---- Pasos
--------------5-----------------------------------------------------------------------6 ------------------
Imagen3.jpg


Steps ---- Pasos
--------------7-----------------------------------------------------------------------8 ------------------
Imagen4.jpg


Steps ---- Pasos
--------------9----------------------------------------------------------------------10 ------------------
Imagen5.jpg


Steps ---- Pasos
--------------11-----------------------------------------------------------------------12 ------------------
Imagen6.jpg


Steps ---- Pasos
--------------13-----------------------------------------------------------------------14 ------------------
Imagen7.jpg


Steps ---- Pasos
--------------15-----------------------------------------------------------------------16 ------------------
Imagen8.jpg


Steps ---- Pasos
--------------17-----------------------------------------------------------------------18 ------------------
Imagen9.jpg


Steps ---- Pasos
--------------19-----------------------------------------------------------------------20 ------------------
Imagen10.jpg


Steps ---- Pasos
--------------21-----------------------------------------------------------------------22 ------------------
Imagen11.jpg


Steps ---- Pasos
--------------23-----------------------------------------------------------------------24 ------------------
Imagen12.jpg


Steps ---- Pasos
--------------25-----------------------------------------------------------------------26 ------------------
Imagen13.jpg


The end result is this beautiful and tender origami

El resultado final, es este precioso y tierno origami

Imagen14.jpg

Imagen15.jpg


I hope you liked the result and managed to understand each step in the images, if you have any doubt do not hesitate to do so, I will gladly answer you thanks for reading until the end, I hope in a next post.

Espero que te gustara el resultado y lograras comprender cada paso en las imagines, si tienes alguna duda no dudes en hacerla, con gusto te la responderé  gracias por leer hasta el final, los espero en un próximo post.




The photographs are my own and were taken by me with a Redmi 9 and were edited in powerpoint.

Las fotografías son de mi autoría y fueron tomadas por mí con un Redmi 9 y se editaron en powerpoint.


Language corrector used Deepl.

Corrector de idioma utilizado Deepl.


The Step by Step Gif was made by me in AdobePhotoshop CC2014.

El Gif de Paso a Paso fue realizado por mi en AdobePhotoshop CC2014.


The image of HIVE used on the cover (initial image) was taken from here:

La imagen de HIVE usada en la portada (imagen inicial) fue tomada de acá:


Source--Fuente

My social networks-Mis redes sociales